VIDEOS DE MÚSICA RELIGIOSA

Sala de videos

Página 1

 

Ximena Gray y Juan Pablo Soffia - Ven Amada Mía

 La canción ha sido compuesta por el Gen Rosso, grupo cristiano italiano, en francés, con el título: "Viens ma toute belle". Se canta en matrimonios, pero también en misas de difuntos con cuerpo presente. Excelente la interpretación de la canción donde son acompañados por el coro Voces para el Señor.

 

Agradecimientos a Omar Ortega por las posturas para guitarra.

Guitarra cuerdas de Nylon.

Intro:

e----------12-12/10-12--------------------------
b-13-12-------------------12-13-13----12--------
g-------14-------------14----------14----14-13--

Lam Siº7 Mi7sus4
En la noche le busque al amor de mi alma,
Lam La7 Rem
en mi árido jardín el hizo su morada.
Sol Do
Con perlas de  rocío cubrió el mi cabeza,
Siº7 Mi7sus4
mi alma esta bella mi bien amado llega.

LA Mi Sim Sim/Do# Fam#
Ven (ven) amada mía; Ven (ven) a mi jardín, (a mi jardín)
Re Mibº
el invierno ya paso (el invierno ya paso)
La Mi7 (sus4) Fam# Re
y las viñas en flor exhalan su frescor…
La Mi7sus4 Mi La Mi7sus4 Mi Lam
Ven, a mi jardín…

Interludio: (Arpegiar acordes de la estrofa.)

e---------------12-12/10-10/12----------------------------------
b-13--12-12--------------------13-12----------------------------
g-----------14-----------------------14-12----------------------
d------------------------------------------15-14-14-15-12/10/12-
a---------------------------------------------------------------
e---------------------------------------------------------------

e-----------------3--------3---------------
b-----------3(6)5---3/5/3-----6-5-3--------
g-------4-5-------------------------5-4-2--
d------------------------------------------
a-8-7-5------------------------------------
e------------------------------------------

Habla mi bien amado, atisba en la ventana.
El fruto esta maduro mi alma esta presta,
espero su llamado pidiéndome abrir,
arrulla la paloma mi bien amado llega.


Acordes no usuales:

Si°7 = X23230

\X /
||||||
|O|O||
||O|O|

Mib° = XX2323

\XX /
||O|O|
|||O|O
||||||

Sim/Do# = X42432

\X /
||||||
OOOOOO
||||O|
|O|O||



Los videos religiosos están patrocinados por la página web "Oraciones y Devociones Católicas", pero puede acoger  música de alabanza de otras iglesias cristianas. No está circunscrita solamente a música católica. Todos somos hijos de un solo Dios y hermanos en Cristo.

Volver a página principal videos

 

 

Esta página pertenece al sitio  "Oraciones y Devociones Católicas"

Visite siempre la Portada del sitio, siempre hay algo nuevo ahí.